Nirvana - Mexican Seafood: chords

E---------------------------------------------------------
B---------------------------------------------------------
G---------------------------------------------------------
D--6--x-x-x-x-6--x-x-x-x-6-4---6--x-x-x-x-6--x-x-x-x-6-9--
A--6--x-x-x-x-6--x-x-x-x-6-4---6--x-x-x-x-6--x-x-x-x-6-9--
E--4--x-x-x-x-4--x-x-x-x-4-2---4--x-x-x-x-4--x-x-x-x-4-7--
   G#                      F#                          B

Ah, the itchy flakes, it is flaming
To, the gels and creams, it is pertaining
To, a fungus mold cured by injection
Hope it's only Ah, a yeast infection

Chorus:
E-------------------------------
B-------------------------------
G-------------------------------
D--6--6-x-4-4-4-3--3-3-3-3-3-4--
A--6--6-x-4-4-4-1--3-3-3-3-3-4--
E--4--4-x-2-2-2-1--1-1-1-1-1-2--
   G#     F#    F            F#

Oh well it hurts when I, hurts when I pee
Oh well it hurts when I, hurts when I see

Now I vomit cum and diarrhea
On the tile floor, like oatmeal-pizza
Fill my toilet bowl, full of a cloudy puss
I feel the blood, becoming chowdered rust

Chorus

Roll into my bed, which does consist of
Lice, bugs and fleas and yellow mucus
Stained, dirt vaseline, toe jam and boogers
Stomach acid worms, that dance in sugared sludge

Tonality

Reset

Font size

Reset

Chords fingerings

F

Chord F

F#

Chord F#

G#

Chord G#

B

Chord B

Video