Nirvana - Floyd the Barber: chords

E-------------------------
B-------------------------
G-------------------------
D--3--3----2--2--2--------
A--3--3----2--2--2--------
E--1--1----0--0--0--------
   F       E

Hello Cobain, come on in
Floyd observes my hairy chin
Sit down chair don't be afraid
Steamed hot towel on my face

Chorus:
E-----------------------------------
B-----------------------------------
G--5--5------------4--4-------------
D--5--5----6--6----4--4----5--5-----
A--3--3----6--6----2--2----5--5-----
E----------4--4------------3--3-----
   C       G#      B       G

I was Shaved
I was Shaved
I was Shaved

Harney ties me to the chair
I can't see I'm really scared
Floyd breathes hard I hear a zip
Pee pee pressed against my lips

Chorus:
I'm ashamed
I'm ashamed
I'm ashamed

Solo

I sense others in the room
Opey, Aunt Hee, I presume
They take turns and cut me up
I died smothered in Andy's butt.

Chorus:
I was Shamed
I was Shamed
I was Shamed

Tonality

Reset

Font size

Reset

Chords fingerings

C

Chord C

E

Chord E

F

Chord F

G

Chord G

G#

Chord G#

B

Chord B

Video